728x90 AdSpace

  • Latest News

    6/06/2009

    American Desi - Punjabi MC - Mirza - Surinder Shinda Gitar Tab

    Çok güzel bir parça ve gitar tab çok güzel çıkıyor devamı konunun devamında :D

    Ssssssss Punjabi MC

    ----------------Surinder shinda--------mirza-----
    |--------------|---------8----|-----------|----------8-|
    |------------8-|------------9-|---------8-|--------9---|
    |---------8----|----10--------|-------8---|---10-------|
    |----10--------|--------------|---10------|------------|
    |--------------|-8------------|-----------|-8----------|
    |-8------------|--------------|-8---------|------------|

    keday nah ranjha kan parwaunda.
    te heer kahaundi choori nah

    |--------------|------6----|----------|--------8-|
    |------------9-|---------8-|--------8-|------9---|
    |--------10----|----8------|------8---|---10-----|
    |----11--------|-----------|---10-----|----------|
    |-8------------|-6---------|----------|-8--------|
    |--------------|-----------|-8--------|----------|

    mirzay ne phere marna ki si
    jai hundi majboori naa


    |--------------|------6----|----------|------8---|
    |------------9-|---------8-|--------8-|--------9-|
    |--------10----|----8------|------8---|---10-----|
    |----11--------|-----------|---10-----|----------|
    |-8------------|-6---------|----------|-8--------|
    |--------------|-----------|-8--------|----------|

    kon kerenga yaad sassi nu
    jai thal wich hundi poori na

    |--------------|-------8---|-----------|--------8-|
    |------------8-|---------9-|---------8-|------9---|
    |---------8----|---10------|-------8---|---10-----|
    |----10--------|-----------|---10------|----------|
    |--------------|-8---------|-----------|-8--------|
    |-8------------|-----------|-8---------|----------|

    ishq ne yaaron marjana si
    jai ashiqe charde sooli na

    |--------------|------8---|-----------|--------8-|
    |------------8-|--------9-|---------8-|------9---|
    |---------8----|---10-----|-------8---|---10-----|
    |----10--------|----------|---10------|----------|
    |--------------|-8--------|-----------|-8--------|
    |-8------------|----------|-8---------|----------|

    jai ghatt oh ni si
    Tee ghatt aajj wi nai

    |-------------|------6----|----------|--------8-|
    |-----------9-|---------8-|--------8-|------9---|
    |--------10---|----8------|------8---|---10-----|
    |----11-------|-----------|---10-----|----------|
    |-8-----------|-6---------|----------|-8--------|
    |-------------|-----------|-8--------|----------|

    |-------------|------6----|----------|-------8---|
    |-----------9-|---------8-|--------8-|---------9-|
    |--------10---|----8------|------8---|---10------|
    |----11-------|-----------|---10-----|-----------|
    |-8-----------|-6---------|----------|-8---------|
    |-------------|-----------|-8--------|-----------|

    menu darse wallan da ose wellay ho jana

    |-------------|------8---|----------|--------8-|
    |-----------8-|--------9-|--------8-|------9---|
    |---------8---|---10-----|------8---|---10-----|
    |----10-------|----------|---10-----|----------|
    |-------------|-8--------|----------|-8--------|
    |-8-----------|----------|-8--------|----------|

    menu darse wallan da ose wellay ho jana

    |-----------|------8---|----------|--------8-|
    |---------8-|--------9-|--------8-|------9---|
    |-------8---|---10-----|------8---|---10-----|
    |----10-----|----------|---10-----|----------|
    |-----------|-8--------|----------|-8--------|
    |-8---------|----------|-8--------|----------|

    ja kay jad sahibaan nu mai seenay naal laya

    |--------------|------6----|----------|--------8-|
    |------------9-|---------8-|--------8-|------9---|
    |--------10----|----8------|------8---|---10-----|
    |----11--------|-----------|---10-----|----------|
    |-8------------|-6---------|----------|-8--------|
    |--------------|-----------|-8--------|----------|

    ja kay jad sahibaan nu mai seenay naal laya

    |-------------|------6----|----------|------8---|
    |-----------9-|---------8-|--------8-|--------9-|
    |--------10---|----8------|------8---|---10-----|
    |----11-------|-----------|---10-----|----------|
    |-8-----------|-6---------|----------|-8--------|
    |-------------|-----------|-8--------|----------|

    it was late last summer my blood coloured the sky
    when i heard you break your swear punjab in my eye

    |------------|--------8---|----------|--------8-|
    |----------8-|----------9-|--------8-|------9---|
    |--------8---|----10------|------8---|---10-----|
    |----10------|------------|---10-----|----------|
    |------------|-8----------|----------|-8--------|
    |-8----------|------------|-8--------|----------|

    never had i cried before never had my steel heart died before
    but know i felt the raw

    |------------|--------8---|----------|--------8-|
    |----------8-|----------9-|--------8-|------9---|
    |--------8---|----10------|------8---|---10-----|
    |----10------|------------|---10-----|----------|
    |------------|-8----------|----------|-8--------|
    |-8----------|------------|-8--------|----------|

    blast true love forever last
    but you cant feel my body for you i cast

    |-------------|-------6---|----------|---------8-|
    |-----------9-|---------8-|--------8-|-------9---|
    |--------10---|----8------|------8---|----10-----|
    |----11-------|-----------|---10-----|-----------|
    |-8-----------|-6---------|----------|-8---------|
    |-------------|-----------|-8--------|-----------|

    die for my woman my woman is my mind
    my destiny she speaks through her every freaky line

    |-------------|-------6---|----------|------8---|
    |-----------9-|---------8-|--------8-|--------9-|
    |--------10---|----8------|------8---|---10-----|
    |----11-------|-----------|---10-----|----------|
    |-8-----------|-6---------|----------|-8--------|
    |-------------|-----------|-8--------|----------|

    her body movement is the way i survive when im on the battle field staying alive

    |-------------|--------8---|----------|--------8-|
    |-----------8-|----------9-|--------8-|------9---|
    |---------8---|----10------|------8---|---10-----|
    |----10-------|------------|---10-----|----------|
    |-------------|-8----------|----------|-8--------|
    |-8-----------|------------|-8--------|----------|

    staying alive my arches is that 249 mcs on horseback

    |------------|--------8---|----------|--------8-|
    |----------8-|----------9-|--------8-|------9---|
    |--------8---|----10------|------8---|---10-----|
    |----10------|------------|---10-----|----------|
    |------------|-8----------|----------|-8--------|
    |-8----------|------------|-8--------|----------|

    so i pull out my steel to fight back pull out an ounce of this and pull out my rice sack

    |-------------|------6----|----------|--------8-|
    |-----------9-|---------8-|--------8-|------9---|
    |--------10---|----8------|------8---|---10-----|
    |----11-------|-----------|---10-----|----------|
    |-8-----------|-6---------|----------|-8--------|
    |-------------|-----------|-8--------|----------|

    walked across the 5 rivers 100 degrees my body burns my mind cease

    |-------------|------6---|----------|-------8---|
    |-----------9-|--------8-|--------8-|---------9-|
    |--------10---|----8-----|------8---|----10-----|
    |----11-------|----------|---10-----|-----------|
    |-8-----------|-6--------|----------|-8---------|
    |-------------|----------|-8--------|-----------|

    bakiye hawa de naal kerange tu ajj gaalan ni

    |------------|-------8---|----------|--------8-|
    |----------8-|---------9-|--------8-|------9---|
    |--------8---|----10-----|------8---|---10-----|
    |----10------|-----------|---10-----|----------|
    |------------|-8---------|----------|-8--------|
    |-8----------|-----------|-8--------|----------|

    bakiye hawa de naal kerange tu ajj gaalan ni

    |-----------|--------8---|----------|--------8-|
    |---------8-|----------9-|--------8-|------9---|
    |-------8---|----10------|------8---|---10-----|
    |----10-----|------------|---10-----|----------|
    |-----------|-8----------|----------|-8--------|
    |-8---------|------------|-8--------|----------|

    jatti mar jugi jai mai nazar na aaya

    |-------------|------6----|----------|--------8-|
    |-----------9-|---------8-|--------8-|------9---|
    |--------10---|----8------|------8---|---10-----|
    |----11-------|-----------|---10-----|----------|
    |-8-----------|-6---------|----------|-8--------|
    |-------------|-----------|-8--------|----------|

    jatti mar jugi jai mai nazar na aaya

    |-------------|------6----|----------|-------8---|
    |-----------9-|---------8-|--------8-|---------9-|
    |--------10---|----8------|------8---|----10-----|
    |----11-------|-----------|---10-----|-----------|
    |-8-----------|-6---------|----------|-8---------|
    |-------------|-----------|-8--------|-----------|

    To be contined...........

    |-------------|------6----|----------|---------8-|
    |-----------9-|---------8-|--------8-|-------9---|
    |--------10---|----8------|------8---|----10-----|
    |----11-------|-----------|---10-----|-----------|
    |-8-----------|-6---------|----------|-8---------|
    |-------------|-----------|-8--------|-----------|

    jatti mar jugi jai mai nazar na aaya

    |-------------|------6----|----------|-------8---|
    |-----------9-|---------8-|--------8-|---------9-|
    |--------10---|----8------|------8---|----10-----|
    |----11-------|-----------|---10-----|-----------|
    |-8-----------|-6---------|----------|-8---------|
    |-------------|-----------|-8--------|-----------|

    |-------------|--------8---|-----------|--------8-|
    |-----------8-|----------9-|---------8-|------9---|
    |---------8---|----10------|-------8---|---10-----|
    |----10-------|------------|---10------|----------|
    |-------------|-8----------|-----------|-8--------|
    |-8-----------|------------|-8---------|----------|

    |------------|-------8----|-----------|--------8-|
    |----------8-|----------9-|---------8-|------9---|
    |--------8---|----10------|-------8---|---10-----|
    |----10------|------------|---10------|----------|
    |------------|-8----------|-----------|-8--------|
    |-8----------|------------|-8---------|----------|

    |-------------|------6----|----------|---------8-|
    |-----------9-|---------8-|--------8-|-------9---|
    |--------10---|----8------|------8---|----10-----|
    |----11-------|-----------|---10-----|-----------|
    |-8-----------|-6---------|----------|-8---------|
    |-------------|-----------|-8--------|-----------|

    |-------------|------6----|----------|-------8---|
    |-----------9-|---------8-|--------8-|---------9-|
    |--------10---|----8------|------8---|----10-----|
    |----11-------|-----------|---10-----|-----------|
    |-8-----------|-6---------|----------|-8---------|
    |-------------|-----------|-8--------|-----------|

    sada janam janam tak sath nibuga bekiye ni

    |--------------|--------8---|----------|---------8-|
    |------------8-|----------9-|--------8-|-------9---|
    |---------8----|----10------|------8---|---10------|
    |----10--------|------------|---10-----|-----------|
    |--------------|-8----------|----------|-8---------|
    |-8------------|------------|-8--------|-----------|

    sada janam janam tak sath nibuga bakiye ni

    |------------|--------8---|-----------|--------8-|
    |----------8-|----------9-|---------8-|------9---|
    |--------8---|----10------|-------8---|---10-----|
    |----10------|------------|---10------|----------|
    |------------|-8----------|-----------|-8--------|
    |-8----------|------------|-8---------|----------|

    behkay khol khuday de jatt ne lekh likhaya

    |-------------|------6----|----------|----------8-|
    |-----------9-|---------8-|--------8-|--------9---|
    |--------10---|----8------|-------8--|----10------|
    |----11-------|-----------|---10-----|------------|
    |-8-----------|-6---------|----------|-8----------|
    |-------------|-----------|-8--------|------------|

    behkay khol khuday de jatt ne lekh likhaya

    |-------------|------6----|----------|-------8---|
    |-----------9-|---------8-|--------8-|---------9-|
    |--------10---|----8------|------8---|----10-----|
    |----11-------|-----------|---10-----|-----------|
    |-8-----------|-6---------|----------|-8---------|
    |-------------|-----------|-8--------|-----------|

    |-------------|--------8---|----------|--------8-|
    |-----------8-|----------9-|--------8-|------9---|
    |---------8---|----10------|------8---|---10-----|
    |----10-------|------------|---10-----|----------|
    |-------------|-8----------|----------|-8--------|
    |-8-----------|------------|-8--------|----------|

    |------------|--------8---|-----------|--------8-|
    |----------8-|----------9-|---------8-|------9---|
    |--------8---|----10------|-------8---|---10-----|
    |----10------|------------|---10------|----------|
    |------------|-8----------|-----------|-8--------|
    |-8----------|------------|-8---------|----------|

    |-------------|------6----|----------|---------8-|
    |-----------9-|---------8-|--------8-|-------9---|
    |--------10---|----8------|------8---|----10-----|
    |----11-------|-----------|---10-----|-----------|
    |-8-----------|-6---------|----------|-8---------|
    |-------------|-----------|-8--------|-----------|

    |-------------|------6----|----------|-------8---|
    |-----------9-|---------8-|--------8-|---------9-|
    |--------10---|----8------|------8---|----10-----|
    |----11-------|-----------|---10-----|-----------|
    |-8-----------|-6---------|----------|-8---------|
    |-------------|-----------|-8--------|-----------|

    tanman taja ho jau saray dukh tut jan ne

    |-------------|--------8---|-----------|--------8-|
    |-----------8-|----------9-|---------8-|------9---|
    |--------8----|----10------|-------8---|---10-----|
    |----10-------|------------|---10------|----------|
    |-------------|-8----------|-----------|-8--------|
    |-8-----------|------------|-8---------|----------|

    tanman taja ho jau saray dukh tut jan ne

    |-------------|--------8---|-----------|--------8-|
    |-----------8-|----------9-|---------8-|------9---|
    |--------8----|----10------|-------8---|---10-----|
    |----10-------|------------|---10------|----------|
    |-------------|-8----------|-----------|-8--------|
    |-8-----------|------------|-8---------|----------|

    dekhi jad mai sahibaan tanbad lehaya

    |-------------|------6----|----------|---------8-|
    |-----------9-|---------8-|--------8-|-------9---|
    |--------10---|----8------|------8---|----10-----|
    |----11-------|-----------|---10-----|-----------|
    |-8-----------|-6---------|----------|-8---------|
    |-------------|-----------|-8--------|-----------|

    dekhi jad mai sahibaan tanbad lehaya

    |-------------|------6----|----------|-------8---|
    |-----------9-|---------8-|--------8-|---------9-|
    |--------10---|----8------|------8---|----10-----|
    |----11-------|-----------|---10-----|-----------|
    |-8-----------|-6---------|----------|-8---------|
    |-------------|-----------|-8--------|-----------|

    |-------------|--------8---|----------|--------8-|
    |-----------8-|----------9-|--------8-|------9---|
    |--------8----|----10------|------8---|---10-----|
    |----10-------|------------|---10-----|----------|
    |-------------|-8----------|----------|-8--------|
    |-8-----------|------------|-8--------|----------|

    |-------------|--------8----|----------|--------8-|
    |-----------8-|----------9--|--------8-|------9---|
    |--------8----|----10-------|------8---|---10-----|
    |----10-------|-------------|---10-----|----------|
    |-------------|-8-----------|----------|-8--------|
    |-8-----------|-------------|-8--------|----------|

    |-------------|------6----|----------|---------8-|
    |-----------9-|---------8-|--------8-|-------9---|
    |--------10---|----8------|------8---|----10-----|
    |----11-------|-----------|---10-----|-----------|
    |-8-----------|-6---------|----------|-8---------|
    |-------------|-----------|-8--------|-----------|

    |------------|------6----|----------|-------8---|
    |----------9-|---------8-|--------8-|---------9-|
    |-------10---|----8------|------8---|----10-----|
    |----11------|-----------|---10-----|-----------|
    |-8----------|-6---------|----------|-8---------|
    |------------|-----------|-8--------|-----------|

    |------------|--------8---|----------|--------8-|
    |----------8-|----------9-|--------8-|------9---|
    |--------8---|----10------|------8---|---10-----|
    |----10------|------------|---10-----|----------|
    |------------|-8----------|----------|-8--------|
    |-8----------|------------|-8--------|----------|

    |-----------|--------8---|----------|-------8-|
    |---------8-|----------9-|--------8-|------9--|
    |-------8---|----10------|------8---|---10----|
    |----10-----|------------|---10-----|---------|
    |-----------|-8----------|----------|-8-------|
    |-8---------|------------|-8--------|---------|

    |------------|------6----|----------|---------8-|
    |----------9-|---------8-|--------8-|-------9---|
    |-------10---|----8------|------8---|----10-----|
    |----11------|-----------|---10-----|-----------|
    |-8----------|-6---------|----------|-8---------|
    |------------|-----------|-8--------|-----------|

    |-------------|------6----|----------|-------8---|
    |-----------9-|---------8-|--------8-|---------9-|
    |--------10---|----8------|------8---|----10-----|
    |----11-------|-----------|---10-----|-----------|
    |-8-----------|-6---------|----------|-8---------|
    |-------------|-----------|-8--------|-----------|

    Mehmet Ali

    Grafik tasarım konusunda bir şeyler öğrenmekte, öğrenmekte olduklarını paylaşmakta.

    Website: Mhmtalizm

    • Blogger Yorumları
    • Facebook Yorumları

    0 yorum:

    Yorum Gönder

    Item Reviewed: American Desi - Punjabi MC - Mirza - Surinder Shinda Gitar Tab Rating: 5 Reviewed By: Kirli Adam
    Scroll to Top